Tuesday, 2 February 2010

Vinnaithandi Varuvaya Guitar Chords..!

Hi. This is The Legend A.R.Rahman's Vinnaithandi Varuvaya chords. I've found these chords myself. Some chords will be in brackets which means they have to be strummed instead of plucking. Some chords here are played in alternate ways and here I've numbered it in square bracket for convenience (To know, scroll down for the tabs). I guess its the right chords. If you find any chords wrong, correct me.

This is how the starting goes:
(Scroll down for the tabs)


--D9 (no 5th)--
e----------------------------------------------|
B---5----------------5----------------5--------|
G--------5----------------5--------------------|
D------4---4-----------4----4-----------4------|
A---5----------------5----------------5--------|
E----------------------------------------------|

--D m9 (no 5th)--
e----------------------------------------------|
B---5----------------5----------------5--------|
G--------5----------------5--------------------|
D------3---3-----------3----3-----------3------|
A---5----------------5----------------5--------|
E----------------------------------------------|


--D9 (no 5th)-- --D m9 (no 5th)--
--D9 (no 5th)-- --D m9 (no 5th)--
Ohrey uyire, Unnakagha thudithaen, vinmeeney..
--D9 (no 5th)-- --D m9 (no 5th)--
Vinnaithaandi Varuvaayaa..
--D m9 (no 5th)-- (D#maj7 [1])--Dm-- (D#maj7 [2])
Vinnaithaandi Varuvaayaaaahh..
--D#maj7 [3]-- (D#maj7 [1])--Dm--
Vinnaithaandi Varuvaayaa..
(C# maj7) (C#) (G#) (D#)
Vinmeeney varuvayaaahh..


--D9 (no 5th)-- --D m9 (no 5th)-- --D9 (no 5th)--
Neytrum iravil, Unnodu iruthaen, Athai neeyum,
--D9 (no 5th)-- --D m9 (no 5th)-- --D9 (no 5th)--
Maranthaaya maranthaayahh..
--D m9 (no 5th)-- (A#maj7 [1])--Dm--
Kanavodu vizhaiyaada..
--D#maj7 [4]-- (A# maj7 [2])--Dm--
Vinnaithaandi Varuvaayaa..
(Cm7) (G#) (backing 1*)
Nilavae nee varuvaayah..


*backing 1:

e--11------11-----11-----12------12------12--------|
B-----9-------9------9-------10------10------10----|
G------8-------8------8--------11------11------11--|
D--------------------------------------------------|
A--------------------------------------------------|
E--------------------------------------------------|

e--12------12------12-------12------12------12------------|
B-----10------10------10-------10------10------10-----------|
G-------10------10------10-------11------11------11---------|
D---------------------------------------------------------------|
A---------------------------------------------------------------|
E-------------------------------------------------------------|


--D9 (no 5th)-- --D m9 (no 5th)-- --D9 (no 5th)--
Ohrey uyire Unnakagha thudithaen, vinmeeney..
--D9 (no 5th)-- --D m9 (no 5th)--
Vinnaithaandi Varuvaayaa..

(Cmaj, Gmaj, Fmaj are played in the same way)
Oooohhhhhhhhhhh..oooohhhhhhh…..
Ooooohhhhhhhhhh..oooohhhhhh…

(then G#maj, C#maj, D#maj, Fm (and some power chords) are played in

the same way)
Uyire neeyum naanum,
Pirinthadhu puthirrr-pu maiyathil thaaney..ooooohhhhhh
Iruthuruvam sern-antha orr-idam,
Anggatheythaan naam sernthomey..
Inimezh naanum neeyum pirivathillai..anbeyy..


--C# 9(no 5th)--
Vinnaithaandi Varuvaayaa..
--C# 9(no 5th)-- (C# m7)--C#m-- --Amaj--
Vinnaithaandi Varuvaayaa..
(Amaj7)--Dmaj7-- --C#m--
Vinnaithaandi Varuvaayaa..
(D6)--Gmaj7-- --Gmaj--(backing 2*)
Vinmeeney varuvayaaahh..


*backing 2:

e--7------7------7------------------------------|
B-----8------8------8---------------------------|
G-------7------7------7-------------------------|
D--------------------------------------------------|
A--------------------------------------------------|
E--------------------------------------------------|




TABS:

D9 (no 5th)
e------------------------------------------------|
B---5-------------5--------------5--------------|
G-------5--------------5------------------------|
D-----4---4---------4---4---------4------------|
A---5-------------5-------------5---------------|
E------------------------------------------------|

D m9 (no 5th)
e-------------------------------------------------|
B---5-------------5--------------5---------------|
G-------5--------------5-------------------------|
D-----3---3---------3---3---------3-------------|
A---5-------------5-------------5----------------|
E-------------------------------------------------|

D#maj7-1
e--------10-------------------------------|
B---------8--------------------------------|
G--------8--------------------------------|
D--------8--------------------------------|
A------------------------------------------|
E------------------------------------------|

D#maj7-2
e--------------3--------------|
B--------------3--------------|
G----2---3----3--------------|
D--------------1--------------|
A-----------------------------|
E-----------------------------|

D#maj7-3
e-----------------------------------------|
B---8-------------8--------------8------|
G-------7--------------7----------------|
D-----8---8---------8---8---------8----|
A---6-------------6-------------6-------|
E-----------------------------------------|

D#maj7-4
e-------------------------------------------------------|
B---6----8----10----8-------------8--------------8---|
G------------------------7--------------7--------------|
D----------------------8---8---------8---8---------8--|
A--------------------6-------------6-------------6-----|
E-------------------------------------------------------|

A#maj7-1
e--------10------------------------------|
B--------10------------------------------|
G-------10-------------------------------|
D--------8--------------------------------|
A-----------------------------------------|
E-----------------------------------------|

A#maj7-2
e---------5------------------------|
B---------3------------------------|
G--------3-------------------------|
D--------3-------------------------|
A----------------------------------|
E----------------------------------|


Dm
e------------------------------------------|
B---6-------------6--------------6--------|
G-------7--------------7------------------|
D-----7---7---------7---7---------7------|
A---0-------------0--------------0--------|
E------------------------------------------|

C# maj7
e-----------10----8------------------------|
B--------8--------6------------------------|
G----8-----------6------------------------|
D-----------------6------------------------|
A------------------------------------------|
E------------------------------------------|

C#
e--------6---------------------------|
B--------6---------------------------|
G--------6----5----3----8----------|
D--------4---------------------------|
A------------------------------------|
E------------------------------------|

Cm7
e---------------------------------|
B---------4----------------------|
G--------5-----------------------|
D--------5-----------------------|
A--------6-----------------------|
E---------------------------------|

C# m7
e---------9-----------------------|
B---------9-----------------------|
G--------9-----------------------|
D--------9-----------------------|
A---------------------------------|
E---------------------------------|

C#m
e---------------------------------|
B---5--------------5-------------|
G-------6--------------6---------|
D-----6---6----------6---6------|
A---------------------------------|
E---4--------------4-------------|

Amaj
e-------------------------------------|
B---5--------------5-----------------|
G-------6--------------6-------------|
D-----7---7----------7---7----------|
A-------------------------------------|
E---5--------------5-----------------|


Amaj7
e---------9------------------------|
B---------9------------------------|
G--------9-------------------------|
D--------7-------------------------|
A----------------------------------|
E----------------------------------|

Dmaj7
e------------------------------------|
B---5-------------5-----------------|
G-------6--------------6------------|
D-----7---7---------7---7----------|
A---5-------------5-----------------|
E------------------------------------|

C#m
e----------------------------------|
B---5--------------5--------------|
G-------6--------------6----------|
D-----6---6----------6---6-------|
A----------------------------------|
E---4--------------5--------------|

D6
e---------7------------------|
B---------7------------------|
G--------7-------------------|
D--------7-------------------|
A----------------------------|
E----------------------------|

Gmaj-7
e----------------------------------|
B---3--------------3--------------|
G-------4--------------4----------|
D-----4---4----------4---4-------|
A----------------------------------|
E---3--------------3--------------|




Please leave your comments.!


-S

17 comments:

Joseph John said...

i sat with my guitar and tried to follow these chords. MAN its way too much for me. Would like to see u playing this wen i come their. PHEW. BUT I WILL TRY ;)

S.Sajith Mohideen said...

Hey. Its easy da, if you practice.! ;)

Gopi said...

hi sajith,

this is gopi. send your mobile number to this id ...

gopi.selvan@gmail.com

Krshna said...

post a video of you playing the sng according to your chords on youtube. Would be very useful for beginners like me!

Cheers,
Krshna

S.Sajith Mohideen said...

Bud.. Its not necessary for me post a video.. I've posted the chords, tabs, and some tips just for beginners like you.. Practice bud.. Happy Guitarin'.! ;)

தங்கராஜ் said...

Hi sajith,
I don't know how to follow your way can you teach me? if you do that it would very useful to every one. other wise difficult for beginner..

தங்கராஜ் said...

pls... do this favor....

Brahadesh said...

Would you please tab out Aaromale from VTV. I would really appreciate it.

S.Sajith Mohideen said...

@Thangaraj: Hi.. I know the chords are little complex.. Thats why i've broken it down and made it easier for beginners.. Please follow the tabs at the end of the post and you will understand.. Thanx.. :)

@Brahadesh: Sure.. Will post it as soon as i find some time.. Thanx bud. :)

Deepan said...

man....i tried in my guitar.....steel strings are painful for playin this and steel sounds diffrnt.....think a nylon string, classical guitar sounds better for this.....

S.Sajith Mohideen said...

@Deepan: No. Its acoustic guitar. What makes you think that it may find easy playing this in a nylon guitar bud? Its all the same. I think you wouldn't have used the right fingers to hold a chord. I suggest you to learn how to hold a chord while reading a chord. That way it helps you make easy to play any song. Happy Guitarin' bud.!!

ashyantony7 said...

Hey dude... You which college....

ashyantony7 said...

Hey dude... You which college....

uthra said...

Hai!
your about me is almost like mine :)
the only difference is i don't try composing.
I find this song difficult..i am happy with Hosanna:)

S.Sajith Mohideen said...

@ uthra: Thank you :-)

Devamithra Edmond (දේවමිත්ර) said...

bro can you send me the notes for this song?

cooly said...

WOW!!!!!!!! awesome bro!!! i sat with my guitar 20 mins ago figuring which song to play and this one came to my mind randomly(i m a big fan of AR sir)i googled it.i got your chords...tried it....and its so nice.there is no need for a video to be posted.the notes are enough.beginners cant play this i guess.cos it has fast strumming.i have been playing guitar from 1 n half years and i m gona keep practising it.thanks :)